DAMAGEINC - Foro de Metallica en Español - DAMAGEINC
Nos mudamos

http://www.damageincweb.ml/

¡Nueva web, con descargas, bootlegs, dvd's, shows, encuestas, discusiones, fotos, todas las novedades al instante, info de la banda, letras, info del tour, y muchisimo mas!

Entrá a ahora

nueva web en: http://www.damageincforo.ml/

FRANTIC

Ver el tema anterior Ver el tema siguiente Ir abajo

FRANTIC

Mensaje por DamageInc el Miér Ago 19, 2009 11:49 pm

Tuning: Drop C (d A F C G C)

Intro

Guitar 1

|---------------------|
|---------------------|
|---------------------| 16x
|---------------------|
|-----------------0---|
|-0-0-0-0-0-0-0-0-0---|


Guitar 2

|---------------------|
|---------------------|
|---------------------| 8x
|-----------------0---|
|-----------------0---|
|-----------------0---|


Guitar 1

|---------------------|
|---------------------|
|---------------------|
|---------------------| 8x
|---------------------|
|-18p15-0000-17-0000--|


Guitar 2

|---------------------|
|---------------------|
|---------------------|
|---------------------| 16x
|---------------------|
|-18p15-0000-17-0000--|



Guitar 2 plays 5 times, the first time clean, then heavy distortion.
Guitar 1 plays 4 times, and begins after the clean part.

|-------------------------------------------------------------------------|
|-------------------------------------------------------------------------|
|-------------------------------------------------------------------------|
|-------------------------------------------------------------------------|
|-------------------------------------------------------------------------|
|-18-15-0-17-17-17--18-15-0-17-17-17--18-15-0-17-17-17--18-15-0-0-0-0-0-0-|



Guitar 1 & 2
"If I could have my wasted days back..."
|---------------------|
|---------------------|
|---------------------|
|---------------------| 6x
|---------------------|
|-6/3---0-0-0-0-0-0---|


Guitar 1 & 2

"Do I have the strength.."

|---------------------|
|---------------------|
|---------------------|
|-3-3-3-3--2-2-2-2----| 4x
|-3-3-3-3--2-2-2-2----|
|-3-3-3-3--2-2-2-2----|


Guitar 1 & 2

"Could have my wasted days back..."
|---------------------|
|---------------------|
|---------------------|
|---------------------| 4x
|---------------------|
|-6/3---0-0-0-0-0-0---|

---

|---------------------|
|---------------------|
|---------------------| 2x (clean, guitar 2)
|---------------------|
|---------------------|
|-18-15-0-17-17-17----|


"You live it or lie it!"
|---------------------|
|---------------------|
|---------------------| 2x (dist., both guitars)
|---------------------|
|---------------------|
|-18-15-0-17-17-17----|


|---------------------|
|---------------------|
|---------------------| 2x (clean, guitar 2)
|---------------------|
|---------------------|
|-18-15-0-17-17-17----|
---

Guitar 1
"My lifestyle, determines..."
|---------------------|
|---------------------|
|---------------------|
|---------------------| 4x
|-000000000-0---------|
|-000000000-0---------|


Guitar 2

|---------------------|
|---------------------|
|---------------------|
|---------------------| 4x
|-----------0---------|
|-000000000-0---------|

---
Guitar 1

"Keep searching..."

|---------------------|
|-----0-------0-------|
|---3---0-------0-----| 16x
|-5-------5-----------|
|---------------------|
|---------------------|

Guitar 2


|---------------------------------------------|
|---------------------------------------------|
|-13-10-12~~-13-10-12~~--7-5-4------7-5-4-----|
|------------------------------5~~--------5~~-| 2x
|---------------------------------------------|
|---------------------------------------------|

---

Guitar 1 & 2
"Frantic, tick, tick, tick, tick, tick, tick, tock..."

|---------------------|
|---------------------|
|---------------------|
|---------------------| 3x
|---------------------|
|-18-15-15-17-0-0-0---|

|---------------------|
|---------------------|
|---------------------|
|---------------------|
|---------------------|
|-18-15-15-17-12------|

|---------------------|
|---------------------|
|---------------------|
|---------------------| 3x
|---------------------|
|-18-15-15-17-0-0-0---|

|---------------------|
|---------------------|
|---------------------|
|---------------------|
|---------------------|
|-18-15-15-17-12------|

---

Guitar 1 & 2

|-------------------------------------------------------------------------|
|-------------------------------------------------------------------------|
|-------------------------------------------------------------------------|
|-------------------------------------------------------------------------| 2x
|-------------------------------------------------------------------------|
|-18-15-0-17-17-17--18-15-0-17-17-17--18-15-0-17-17-17--18-15-0-0-0-0-0-0-|

DamageInc
Cyanide
Cyanide

Mensajes Mensajes : 4996 Sexo : Masculino Antiguedad en el foro : 06/08/2009
Edad : 24
Pais Pais : Argentina

http://damageinc.fororama.com

Volver arriba Ir abajo

Re: FRANTIC

Mensaje por DamageInc el Miér Ago 19, 2009 11:49 pm

Guitar 1 & 2

"I've worn out always..."

|---------------------|
|---------------------|
|---------------------|
|---------------------| 6x
|---------------------|
|-6/3---0-0-0-0-0-0---|


Guitar 1 & 2

"Do I have the strength.."

|---------------------|
|---------------------|
|---------------------|
|-3-3-3-3--2-2-2-2----| 4x
|-3-3-3-3--2-2-2-2----|
|-3-3-3-3--2-2-2-2----|


Guitar 1 & 2

"Worn out always being..."

|---------------------|
|---------------------|
|---------------------|
|---------------------| 4x
|---------------------|
|-6/3---0-0-0-0-0-0---|

---

|---------------------|
|---------------------|
|---------------------| 2x (clean, guitar 2)
|---------------------|
|---------------------|
|-18-15-0-17-17-17----|

"You live it or lie it!"

|---------------------|
|---------------------|
|---------------------| 2x (dist., both guitars)
|---------------------|
|---------------------|
|-18-15-0-17-17-17----|


|---------------------|
|---------------------|
|---------------------| 2x (clean, guitar 2)
|---------------------|
|---------------------|
|-18-15-0-17-17-17----|

---

Guitar 1

"My lifestyle, determines..."

|---------------------|
|---------------------|
|---------------------|
|---------------------| 4x
|-000000000-0---------|
|-000000000-0---------|


Guitar 2

|---------------------|
|---------------------|
|---------------------|
|---------------------| 4x
|-----------0---------|
|-000000000-0---------|

---

Guitar 1

"Keep searching..."

|---------------------|
|-----0-------0-------|
|---3---0-------0-----| 16x
|-5-------5-----------|
|---------------------|
|---------------------|

Guitar 2


|---------------------------------------------|
|---------------------------------------------|
|-13-10-12~~-13-10-12~~--7-5-4------7-5-4-----|
|------------------------------5~~--------5~~-| 2x
|---------------------------------------------|
|---------------------------------------------|

---

Guitar 1 & 2

"Frantic, tick, tick, tick, tick, tick, tick, tock..."

|---------------------|
|---------------------|
|---------------------|
|---------------------| 3x
|---------------------|
|-18-15-15-17-0-0-0---|

|---------------------|
|---------------------|
|---------------------|
|---------------------|
|---------------------|
|-18-15-15-17-12------|

|---------------------|
|---------------------|
|---------------------|
|---------------------| 3x
|---------------------|
|-18-15-15-17-0-0-0---|

|---------------------|
|---------------------|
|---------------------|
|---------------------|
|---------------------|
|-18-15-15-17-12------|


Guitar 1

|---------------------|
|---------------------|
|---------------------|
|---------------------| 24x
|---------------------|
|-18p15-0000-17-0000--|

Then:

|---------------------|
|---------------------|
|---------------------| 4x
|---------------------|
|-----------------0---|
|-0-0-0-0-0-0-0-0-0---|


Guitar 2

|---------------------|
|---------------------|
|---------------------|
|---------------------| 28x
|---------------------|
|-18p15-0000-17-0000--|

---

Guitar 1
"My lifestyle (Birth is Pain)..."
|---------------------|
|---------------------|
|---------------------|
|---------------------| 3x
|-000000000-0---------|
|-000000000-0---------|


Guitar 2

|---------------------|
|---------------------|
|---------------------|
|---------------------| 3x
|-----------0---------|
|-000000000-0---------|


Guitar 1 & 2

|---------------------|
|---------------------|
|---------------------|
|---------------------|
|-----------3-3-3-3---|
|-000000000-3-3-3-3---|

Guitar 1

|---------------------|
|---------------------|
|---------------------|
|---------------------| 4x
|-000000000-0---------|
|-000000000-0---------|

Guitar 2

|---------------------|
|---------------------|
|---------------------|
|---------------------| 4x
|-----------0---------|
|-000000000-0---------|

---

Guitar 1

"Keep searching..."

|---------------------|
|-----0-------0-------|
|---3---0-------0-----| 16x
|-5-------5-----------|
|---------------------|
|---------------------|

Guitar 2


|---------------------------------------------|
|---------------------------------------------|
|-13-10-12~~-13-10-12~~--7-5-4------7-5-4-----|
|------------------------------5~~--------5~~-| 2x
|---------------------------------------------|
|---------------------------------------------|

---
Guitar 1 & 2

"Frantic, tick, tick, tick, tick, tick, tick, tock..."

|---------------------|
|---------------------|
|---------------------|
|---------------------| 3x
|---------------------|
|-18-15-15-17-0-0-0---|

|---------------------|
|---------------------|
|---------------------|
|---------------------|
|---------------------|
|-18-15-15-17-12------|

|---------------------|
|---------------------|
|---------------------|
|---------------------| 3x
|---------------------|
|-18-15-15-17-0-0-0---|

|---------------------|
|---------------------|
|---------------------|
|---------------------|
|---------------------|
|-18-15-15-17-12------|


Guitar 1 & 2


|------------------------|
|------------------------|
|------------------------|
|-0-0--0-0--0-0--0-0--0-0|
|-0-0--0-0--0-0--0-0--0-0|
|-0-0--0-0--0-0--0-0--0-0|




Guitar 1 & 2

Ending

|---------------------|
|---------------------|
|---------------------|
|---------------------| 3x
|-----5p3-3h5-5-5-----|
|-0-0-----------------|


|---------------------|
|---------------------|
|---------------------|
|-------------6-------|
|-----5p3-3h5---5-----|
|-0-0-----------------|


Ending 4x


1

DamageInc
Cyanide
Cyanide

Mensajes Mensajes : 4996 Sexo : Masculino Antiguedad en el foro : 06/08/2009
Edad : 24
Pais Pais : Argentina

http://damageinc.fororama.com

Volver arriba Ir abajo

Ver el tema anterior Ver el tema siguiente Volver arriba

- Temas similares

 
Permisos de este foro:
No puedes responder a temas en este foro.